Это демо-версия табулатуры

Вы сможете воспроизвести только первые 20 секунд.
Зарегистрируйтесь или войдите, чтобы играть полную версию!
# A B C D E F G H I J K L M N O P Q R S T U V W X Y Z

Mccafferty — Britrock табулатура и аккорды

indie punk emo 5 Просмотров 484

Моя оценка:

В коллекцию

Другие песни Mccafferty

 Chords
   F#m   G#m    A or  A   B/A or B/A   Bm
e|-----|-----|-----|-----|-----|-----|-----|
B|-----|-----|-----|-----|-----|-----|-----|
G|-----|-----|-----|--2--|-----|--2--|-----|
D|--4--|-----|--7--|--2--|--7--|--2--|--9--|
A|--4--|--2--|--7--|--0--|--7--|--2--|--9--|
E|--2--|--4--|--5--|-----|--7--|-----|--7--|

[Intro]
e|-----------------|-----------------|-----------------|-----------------|
B|-----------------|-----------------|-----------------|-----------------|
G|-----------------|-----------------|-----------------|-----------------|
D|-7---7---7---7---|-4---4---4---4---|-7---7---7---7---|-2---2---2---2---|
A|---0---0---0---0-|---0---0---0---0-|---0---0---0---0-|---0---0---0---0-|
E|-----------------|-----------------|-----------------|-----------------|

  F#m               F#m              F#m                F#m

e|-----------------|-----------------|-----------------|-----------------|
B|-----------------|-----------------|-----------------|-----------------|
G|-2-2-2-----------|-2-2-2-----------|-2-2-2-----------|-2-2-2-----------|
D|-4-4-4-----------|-4-4-4-----------|-4-4-4-----------|-4-4-4-----------|
A|-4-4-4-----------|-4-4-4-----------|-4-4-4-----------|-4-4-4-----------|
E|-2-2-2-----------|-2-2-2-----------|-2-2-2-----------|-2-2-2-----------|

F#m  G#m  A  A [x2]

[Verse]
                   F#m                  G#m                          A
 And it is not the cause, but maybe the effects that have me feeling bad for these kids I’ve never met
     B/A             F#m                           G#m
 The ones who sit in class saying, "I know all the answers" 
                       A
 But never raise their hands ‘cause they’re scared of all the laughter
                      F#m                   G#m
 And I know freedom’s here, I feel it on my lips
                 A
 I feel it in my bones, and I feel it in my hips
         B/A            F#m                        G#m
 And the party’s almost over, and I haven’t said a word
                        A
 But yeah baby, there’s motive here for sure

[Pre-Chorus]
             F#m           G#m      A                  
 I wanna get old with you again, so old with you again, 
         Bm     F#m                   G#m         A              
 I wanna see my babies grow up really fast on the eastern side of France
             F#m           G#m       A                  
 I wanna get old with you again, get old with you again, 
         Bm            F#m            G#m         A  
 I wanna see my babies grow up really fast on the eastern side of France

[Chorus]
                         F#m                   G#m
 And she wants me at the bottom with mud in my mouth, 
                         A
 And there’s tears in my eyes, and my heads in my hands, 
               F#m                    G#m
 And I open my trunk, yeah, I open my trunk, 
             A                                 B/A
 My baseball cards are still in there, they’re still in there

[Bridge]
     F#m      G#m
 And hold on, wake up
 A                     B/A
 Get drunk, get fucked up
 [4x]

[Pre-Chorus]
        F#m           G#m          A
 It got old with you again, It got old with you again
                       F#m            G#m         A
 I wanna see my babies grow up really fast on the eastern side of France
             F#m          G#m        A                 B/A
 I wanna get old with you again, get old with you again
                       F#m            G#m         A                     
 I wanna see my babies grow up really fast on the eastern side of France

[Chorus]
         Bm              F#m                   G#m
 And she wants me at the bottom with mud in my mouth, 
                         A
 And there’s tears in my eyes, and my heads in my hands, 
       Bm      F#m                    G#m
 And I open my trunk, yeah, I open my trunk, 
             A                                 B/A
 My baseball cards are still in there, they’re still in there
 
 F#m  G#m A   
 Hold on  for me
 F#m   G#m A
 Don’t for-get this
 [2]
 F#m   G#m  A
 Don’t

Мы выбрали лучшие табы (ноты) Mccafferty — Britrock, из тех, что находились на просторах сети. Надеемся, они помогут вам в успешном изучении этой популярной композиции.

Лучший способ научиться играть песню Mccafferty — Britrock на гитаре. Проигрывайте табулатуру и аккорды прямо в вашем браузере без каких-либо дополнительных программ!

Mccafferty — Details indie punk emo
Mccafferty — Dead Bird indie punk emo
Mccafferty — Bottom indie punk emo
Mccafferty — Trees Acoustic indie punk emo

Не можете найти
нужную табулатуру?

Сделайте запрос и мы добавим ее в базу в ближайшее время